Globosfera: The Beatles Abbey Road todas las letras en castellano } -->

Sitio algo lento en Cargar.Aprovechemos para ejercitar el Sano Arte de la Paciencia.El mundo no se hizo en un dia.Lo Bueno Tarda,pero llega.Piano piano no son dos pianos.Ohm.Spyware free analyzed by nothing,tendrás que confiar en mi palabra.Espero te sea útil su contenido.Buena Lectura!

Articulos del blog

Mis Videos 1

Mis Videos 2

Mis Fotos 1

Mis Fotos 2

Mis Covers en video

Mi Radio Online

Mis Covers de Canciones Audio 1

Mis Covers de Canciones Audio 2

Televisión: Mi Trabajo y mi Vocación

Customizable y tuneable: No te gusta la imagen de fondo? Cambiála por el color que prefieras:

Customizable y tuneable: No te gusta la imagen de fondo? Cambiála por el color que prefieras:

Google Translate

Algunas frases al azar.Verás una distinta cada vez que entres:

sábado, 26 de septiembre de 2009

The Beatles Abbey Road todas las letras en castellano


Felices 40 años a este Discazo!!!



Descarga album The Beatles "Abbey Road" Remastered:

http://rapidshare.com/files/279406206/The_Beatles_-_2009_-_Abbey_Road_-__Remastered_.rar

Hoy 26/09/2009 se cumplen 40 años justos de su lanzamiento,acá va esto como homenaje.

"And in the end, the love you take is equal to the love you make" ("Y al final, el amor que tomas es igual al amor que hacés" (nótense los varios sentidos que toma acá esta palabra en realidad).

Ultima frase de la -casi,hay una cancion cortita y "oculta" en realidad luego,"Her Majesty",producto de que Lennon no quiso que fuera luego de "Mean Mr. Mustard" y la pusieron después,inesperada y sorpresivamente luego de un silencio de 20 segundos- ultima canción,del ultimo disco en ser grabado de The Beatles,"Abbey Road" -el Mejor,o uno de ellos! Bien puede ser el mensaje final que quisieron dejar.

Traducciones revisadas,corregidas y adaptadas:


Come together/Juntémonos (Lennon)

Aquí llega el viejo portaaviones
con sus andares pesados y lentos
Los ojos desorbitados
Un liador sagrado
El pelo hasta las rodillas
Tiene que ser un pasota pues hace lo que le place


No lleva lustre en los zapatos
Los dedos de los pies amontonados de jugar a fútbol
Dedo de mono
Se chuta Coca Cola
Dice, "Yo te conozco, tú me conoces"
Lo que si puedo decirte es que times que ser libre
Juntémonos ahora mismo encima de mí


Hace bolsas
Tiene botas de goma de morsa
No tiene patillas
Rompe espinas
Tiene pies debajo de las rodillas
Si te abraza m su sillón notarás su enfermedad
Juntémonos ahora mismo sobre mí


Es una montaña rusa
Recibió un primer aviso
Le dieron agua turbia
Es un filtro de narcóticos
Dice, "Uno y uno y uno son tres"
Time que ser guapo porque es tan caro de ver
Juntémonos ahora mismo sobre mí


Juntémonos
Juntémonos
Juntémonos


Something/Algo (Harrison)

Algo es su manera de moverse
Me atrae como ninguna otra amante
Algo en su manera de cortejarme
No quiero dejarla ahora
Ahora creo y de qué manera


En alguna parte de su sonrisa ella sabe
Que no necesito otra amante
Algo en su estilo me dice
Que no quiero dejarla ahora
Ahora creo y de qué manera


Me preguntas si mi amor crecerá
No lo sé, no lo sé
No te alejes y quizá lo veas
No lo sé, no lo sé


Algo en su manera de saber
Y sólo tengo que pensar en ella
Algo en las cosas que me enseña
No quiero dejarla ahora
Ahora creo y de qué manera


Maxwell's silver hammer/El martillo de plata de Maxwell (McCartney)

Joan era extravagante y estudia ciencia patafísica en casa
Hasta altas horas de la noche, solita con su probeta oh oh oh oh
Maxwell Edison, a punto de licenciarse en medicina, la llama por teléfono
¿Puedo llevarte al cine, Joan, oh oh oh oh?


Pero mientras día se arregla para salir
Llaman a la puerta
Bang bang, el martillo de plata de Maxwell cayó sobre su cabeza
Bang bang, el martillo de plata de Maxwell se aseguró de que estuviera muerta


De vuelta a la escuda, Maxwell vuelve a hacer el tonto
Hasta que la maestra se harta
Y para evitar una escena desagradable
Le dice a Maxwell que se quede después de la clase
Así que él se queda esperando
Escribiendo cincuenta veces "No debo ser así"


Pero cuando día le da la espalda al chico
El se arrastra por detrás
Bang bang, el martillo de plata de Maxwell cayó sobre su cabeza
Bang bang, el martillo de plata de Maxwell se aseguró de que estuviera muerta


La Comisaría treinta y uno dijo, "Hemos cogido a uno muy malo"
Maxwell se queda solo
Haciendo dibujos de los testigos oh oh oh oh
Rose y Valerie gritan desde la tribuna
Diciendo que deben dejarle libre
El juez no está de acuerdo y así lo dice oh oh oh oh


Pero mientras pronuncia estas palabras
Se oye un ruido por detrás
Bang bang, el martillo de plata de Maxwell cayó sobre su cabeza
Bang bang, el martillo de plata de Maxwell se aseguró de que estuviera muerto


El hombre del martillo de plata


Oh! Darling/¡Oh Querida! (McCartney)

¡Oh querida! por favor, créeme
Nunca te haré daño
Créeme cuando te digo
Que nunca te haré daño


¡Oh querida! si me dejas
Nunca lo conseguiré solo
Créeme cuando te ruego
Que nunca me dejes solo


Cuando me dijiste que ya no me necesitabas
Sabes, casi me derrumbo y me echo a llorar
Cuando me dijiste que ya no me necesitabas
Sabes, casi me derrumbo y me muero


¡Oh querida! si me dejas
Nunca lo conseguiré solo
réeme cuando te digo
Que nunca te haré daño


Cuando me dijiste que ya no me necesitabas
Sabes, casi me derrumbo y me echo a llorar
Cuando me dijiste que ya no me necesitabas
Sabes, casi me derrumbo y me muero


¡Oh querida! por favor, créeme
Nunca te fallaré
Oh créeme, querida
Créeme cuando te digo
Que nunca te haré daño


Octopus's garden/El jardín del pulpo (Starr)


Me gustaría estar bajo el mar
En el jardín de un pulpo a la sombra
Nos dejaría entrar, ya sabe donde hemos estado
En su jardín de pulpo a la sombra
Les pediría a mis amigos que vinieran a ver
El jardín del pulpo conmigo
Me gustaría estar bajo el mar
n el jardín de un pulpo a la sombra


Estaríamos calentitos bajo la tormenta
En nuestro pequeño escondite bajo las oías
Reposando la cabeza en el lecho da mar
En el jardín de un pulpo junta a. una cueva
Cantaríamos y bañaríamos
Sabiendo que no pueden encontrarnos
Me gustaría estar bajo el mar
En el jardín de un pulpo a la sombra


Gritaríamos y nadaríamos alrededor
Del coral que vive bajo las olas
Oh, cómo se divertirían las niñas y los niños
Sabiendo que son felices y están a salvo
Seríamos tan felices tú y yo
Sin nadie que nos dijera lo que hay que hacer
Me gustaría estar bajo el mar
En el jardín de un pulpo contigo
En el jardín de un pulpo contigo
En el jardín de un pulpo contigo


I want you/ Te deseo (Lennon)

Te deseo
Té deseo tanto
Te deseo
Te deseo tanto
Me estoy volviendo loco
Me estoy volviendo loco


Te deseo
Te deseo tanto, nena
Te deseo
Te deseo tanto
Me estoy volviendo loco
Me estoy volviendo loco


Te deseo
Te deseo tanto, nena
Te deseo
Te deseo tanto
Me estoy volviendo loco
Me estoy volviendo loco


Te deseo
Te deseo tanto
Te deseo
Te deseo tanto
Me estoy volviendo loco
Me estoy volviendo loco


(Con ella) es tan
Fuerte, fuerte


Here comes the sun/Ya llega el sol (Harrison)

Ya llega el sol
Ya llega el sol
Y yo digo que eso está bien


Cariño
Ha sido un largo, frío y solitario invierno
Cariño
Parece como si hubiera durado años


Ya llega el sol
Ya llega el sol
Y yo digo que eso está bien


Cariño
Las sonrisas vuelven a los rostros
Cariño
Parece como si la luz no hubiera existido durante años


Ya llega el sol
Ya llega el sol
Y yo digo que eso está bien


Sol sol sol
Aquí llega
Sol sol sol
Aquí llega


Carao
Siento cómo el hielo se derrite lentamente
Carao
Parece como si la luz no hubiera existido durante años


Ya llega el sol
Ya llega el sol
Y yo digo que eso está bien


Ya llega el sol
Ya llega el sol
Eso está bien
Eso está bien


Because/Porque (Lennon)

Porque el mundo es redondo
La cabeza me da vueltas
Porque el mundo es redondo, ah


Porque el viento es fuerte
Se me lleva la razón
Porque el viento es fuerte, ah
El amor es viejo, el amor es nuevo
El amor es todo, el amor eres tú


Porque el cielo es azul
Me hace llorar
Porque el cielo es azul, ah


You never give me your money/Nunca me das tu dinero (McCartney)

Nunca me das tu dinero
Sólo me das tus tebeos
en medio de las negociaciones te echas a llorar


Yo nunca te doy mi número
Sólo te doy mi situación
Y en medio de la investigación me echo a llorar


Salir del colegio y gastar el dinero
No veo futuro ni pago el alquiler
Sin dinero ni lugar adonde ir


Los chanchulleros despedidos
De vuelta el lunes por la mañana
Camión amarillo y lento, sin lugar adonde ir


Pero ¡oh, esta mágica sensación
De no tener adonde ir!
Oh, esta mágica sensación
De no tener adonde ir! ¡no tener adonde ir!


Un dulce sueño
Coge las maletas y sube a la limusina
Pronto estaremos lejos de aquí
Aprieta el acelerador y sécate esa lágrima


Un dulce sueño hoy se hizo realidad
Hoy se hizo realidad
Hoy se hizo realidad


Blanco, verde, azul y negro
Los niños buenos van al cielo
Blanco, verde, azul y negro
Los niños buenos van al cielo


Sun King/Rey sol (Lennon)

Aquí llega el rey Sol
Aquí llega el rey Sol
Todo el mundo ríe
Todo el mundo es feliz
Aquí llega el Rey sol


Quando paramucho mi amore defelice corazon
Mundo pararazzi mi amore chicka ferdy parasol
Cuesto obrigado tanta mucho que can eat it carousel


Mean Mister Mustard/El miserable Sr. Mostaza (Lennon)

El miserable señor Mostaza duerme en el parque
Se afeita a oscuras para ahorrar papel
Duerme en un agujero del camino
Ahora para comprar algo de ropa
Guarda un billete de diez chelines en sus narices
Es un viejo tan miserable
Es un viejo tan miserable


Su hermana Pam trabaja en una tienda
No para y es muy emprendedora
Le lleva a ver a la Reina
Que es el único sitio donde ha estado
Siempre grita alguna obscenidad
Es un viejo tan sucio
Sucio viejo


Polythene Pam/Pam Polietileno (Lennon)

Tendrías que ver a Pam Polietileno
Es guapísima pero parece un hombre
Tendrías que verla disfrazada de mujer
vestida con su bolsa de Polietileno
Sí, tendrías que ver a Pam Polietileno
Yeah, yeah, yeah


Échale un vistazo en botas y falda escocesa
Está cañón cuando va de veintiún botones
Es el tipo de chica
Que da que hablar
Sí, podría decirse que está muy bien hecha
Yeah, yeah, yeah


She came in through the bathroom window/Entró por la ventana del baño (McCartney)

¡Ojo!
Entró por la ventana del baño
Protegida por una cuchara de plata
Pero ahora se chupa el dedo y se hace preguntas
Junto a la orilla de su propia laguna


¿Es que nadie se lo dijo?
¿Es que nadie lo vio?
Los domingos al teléfono hasta el lunes
Los martes al habla conmigo


Dijo que siempre había sido bailarina
Que trabajaba en quince clubs al día
Y aunque ella creía que yo sabía la respuesta
Bueno, yo sabía lo que no podía decir


Y así fue como dejé el departamento de policía
Y me busqué un trabajo estable
Y aunque ella hizo lo posible por ayudarme
Sabía hurtar pero no robar


¿Es que nadie se lo dijo?
¿Es que nadie lo vio?
Los domingos al teléfono hasta el lunes
Los martes al habla conmigo


Golden slumbers/Sueños dorados (McCartney/Dekker)

Hubo una vez un camino
Para volver a casa
Hubo una vez un camino
Para volver a casa
Duerme, canijo, no llores
Que yo te arrullaré


Sueños dorados llenan tus ojos
Te despiertan sonrisas al levantarte
Duerme, cariño, no llores
Que yo te arrullaré


Hubo una vez un camino
Para volver a casa
Hubo una vez un camino
Para volver a casa
Duerme, canijo, no llores
Que yo te arrullaré


Carry that weight/Lleva esa carga (McCartney)

Muchacho, vas a llevar esa carga
Vas a llevar esa carga mucho tiempo
Muchacho, vas a llevar esa carga
Vas a llevar esa carga mucho tiempo


Yo nunca te doy mi almohada
Sólo te mando invitaciones
Y en medio de la fiesta me echo a llorar


Muchacho, vas a llevar esa carga
Vas a llevar esa carga mucho tiempo
Muchacho, vas a llevar esa carga
Vas a llevar esa carga mucho tiempo


The end/El fin (McCartney)

Oh yeah
Muy bien
¿Estarás en mis sueños
Esta noche?


Y al final
El amor que tomas
Es igual al amor
Que haces, ah


Her Majesty (Lennon/McCartney)

Su Majestad es una chica muy maja
Pero no pinta gran cosa
Su Majestad es una chica muy maja
Pero cambia de día en día
Me gustaría decirle que la quiero mucho
Pero tendría que estar harto de vino
Su Majestad es una chica muy maja
Algún día será mía, oh yeah
Algún día será mía.

==================================================

Come Together - Beatles

Dm
Here come old flat top, He come grooving up slowly,

Dm
He got Joo Joo eyeball, He one holy roller

A7
He got Hair down to his knee;

G7
Got to be a joker, he just do what he please.


(Riff)

Dm
He wear no shoe shine, he got toe jam football

Dm
He got monkey finger, he shoot co-ca cola

A7
He say, "I know you, you know me."

G7
One thing I can tell you is you got to be free

Bm G
Come Together, Right now, over me

(Riff)

Dm
He bag production, He got wal-rus gumboot

Dm
He got O-no sideboard, He one spinal cracker

A7
He got feet down below his knee

G7
Hold you in his armchair, you can feel his disease

Bm G
Come together, right now, over me

(Riff)

Dm
He roller coaster, he got early warning

Dm
He got muddy water, He one Mo-jo filter

A7
He say, " One and one and one is three."

G7
Got to be good looking 'cause he so hard to see

Bm
Come together, Right now, over me


===================================================

SOMETHING


Riff 1:
F Eb G C
|--------------------------------|
|--10--b(13)12--10--11--12--13---|
|--------------------------------|
|--------------------------------|
|--------------------------------|
|--------------------------------|


C Cmaj7
Something in the way she moves
C7 F
Attracts me like no other lover
D G
Something in the way she woos me
Am G#dim7
I don't want to leave her now
Am7 D/F# F Eb G C
You know I believe in how (riff 1)


C Cmaj7
Somewhere in her smile she knows
C7 F
That I don't need no other lover
D G
Something in her style that shows me [Riff 2
Am G#dim7 F Eb G A
I don't want to leave her now |-----------------------------|
Am7 D/F# F Eb G A |-10--b(13)12--10--11--12--14-|
You know I believe in how (riff 2) |-----------------------------|
|-----------------------------|
|-----------------------------|
|-----------------------------|

A C#m/G# F#m
You're asking me will my love grow
A/E D G A (Bass line: G# G F# F E)
I don't know I don't know
A C#m/G# F#m
You stick around and it may show
A/E D G C (Bass line: B A G E D)
I don't know I don't know

[Solo: see below]
C Cmaj7 C7 F D G
Am G#dim7 Am7 D/F#
F Eb G


C Cmaj7
Something in the way she knows
C7 F
And all I have to do is think of her
D G
Something in the things she shows me
Am G#dim7
I don't want to leave her now
Am7 D F Eb G A F Eb G C
You know I believe in how (riff 3)


[riff 3

F Eb G A F Eb G C
|---------------------------------16-15-14-------------------------------|
|-10--b(13)12--10--11--12--14--14-----------10--b(13)12--10--11--12--13--|
|------------------------------------------------------------------------|
|------------------------------------------------------------------------|
|------------------------------------------------------------------------|
|------------------------------------------------------------------------|

[solo

C Cmaj7 C7
|-------------------------------------------------------------8----|
|-------8----------8b(10)-b(10)8-------------8--10--8---8/10-------|
|--7/9-----9--7/9----------------9------7/9------------------------|
|------------------------------------------------------------------|
|------------------------------------------------------------------|
|------------------------------------------------------------------|

F D
|--8--10--b(12)10--8-------------8--8\-----------------------------|
|---------------------10-----/10--------------8--8-----------------|
|-----------------------------------------/9--------\2---4\2-------|
|------------------------------------------------------------------|
|------------------------------------------------------------------|
|------------------------------------------------------------------|

G
|-------------------------------------------------9-8-7--/12-11-10-|
|-------7--7--b(11)10--10b(11)10 10b(11)10--8---8------------------|
|--2/7-------------------------------------------------------------|
|------------------------------------------------------------------|
|------------------------------------------------------------------|
|------------------------------------------------------------------|

Am G#dim7 Am7
|------------------------------------------------------------------|
|------------------------------------------------------------------|
|-----b(9)7--b(9)7--5----b(9)7-b(9)7-b(9)7--5-- b(9)7--b(9)7--5----|
|------------------------------------------------------------------|
|------------------------------------------------------------------|
|------------------------------------------------------------------|

D F Eb G C

G#dim7 This chord is basically an Am with a G# bass.
Guess you could think of it as an A minor major 7th.

======================================


MAXWELL'S SILVER HAMMER


D D/C# B7 Em
Joan was quizzical, studied pataphysical science in the home,
A7 D A
late nights all alone with a test tube, oh oh oh oh.
D D/C# B7 Em
Maxwell Edison, majoring in medicine, calls her on the phone.
A7 D A
"Can I take you out to the pictures, Jo-o-o-oan?"
E7 A7
But, as she's getting ready to go, a knock comes from the door.


[chorus: note that the guitar solo plays behind the chorus each time]

D E7
Bang! Bang! Maxwell's silver hammer came down upon her head.
A7 Em A7 D A D
Clang! Clang! Maxwell's silver hammer made sure that she was dead.


D F#/C# Bm D7 G D A D


D D/C# B7 Em
Back in school again, Maxwell plays the fool again, teacher gets annoyed.
A7 D A (riff 2: see below)
Wishing to avoid an unpleasant sce-e-e-ene.
D D/C# B7 Em
She tells Max to stay when the class has gone away, so he waits behind.
A7 D A
Writing fifty times "I must not be so-o-o-o."
E7 A7
But, when she turns her back on the boy, he creeps up from behind.


D E7
Bang! Bang! Maxwell's silver hammer came down upon her head.
A7 Em A7
Clang! Clang! Maxwell's silver hammer made sure that she was dead.


(guitar solo: see below)
D E7 A7 Em A7 D A D

D F#/C# Bm D7 G D A D

D D/C# B7 Em
P.C. thirtyone said "We've caught a dirty one.", Maxwell stands alone.
A7 D A (riff 2)
Painting testimonial pictures, oh, oh, oh, oh.
D D/C# B7 Em
Rose and Valerie, screaming from the gallery, say he must go free.
A7 D A
The judge does not agree and he tells them so-o-o-o.
E7 A7
But, as the words are leaving his lips, a noise comes from behind.


D E7
Bang! Bang! Maxwell's silver hammer came down upon her head.
A7 Em A7
Clang! Clang! Maxwell's silver hammer made sure that he was dead.

(repeat solo)
D E7 A7 Em A7 D A D

D F#/C# Bm D7 G D A D
Sil-ver Ham-mer man!

-------------------------------------------------
riff 2:

|--5----5-----3--2--|
|--5h3--3p5---3--3--|
|-------------------|
|-------------------|
|-------------------|
|-------------------|

==========================================

"Oh! Darling"

E+ A E
Oh___ darling please believe me
F#m D
I'll never do you no harm
Bm7 E7
Be-lieve me when I tell you
Bm7 E7 A
I'll never do you no harm

Interlude:

A-D-A-E

E A E
Oh___ darling if you leave me
F#m D
I'll never make it alone
Bm7 E7
Believe me when I beg you
Bm7 A
Don't ever leave me alone

Interlude:

A-D-A-A7

Chorus:
A7 D F7
When you told me you didn't need me anymore
A
Well you know I nearly broke down and cried
B7
When you told me you didn't need me anymore
E7 F7(5) E7 E+
Well you know I nearly fell down and died___

E+ A E
Oh darling if you leave me
F#m D
I'll never make it alone
Bm7 E7
Believe me when I tell you
Bm7 E7 A
I'll never do you no harm

Interlude:

A-D-A-A7
(Spoken) Belive me, darling

(repeat chorus)

E+ A E
Oh darling please believe me
F#m D
I'll never let you down

(spoken) oh believe me darling
Bm7 E7
Believe me when I tell you
Bm7 E7 A
I'll never do you no harm

End:

A-D-A-Bb7-A7

============================================

OCTOPUS'S GARDEN


[intro]
B E
B A B
E C#m A B

E C#m
I'd like to be under the sea
A B
In an Octopus's Garden in the shade.

E C#m
He'd let us in knows where we've been,
A B
In his Octopus's Garden in the shade.
C#m
I'd ask my friends to come and see
A B
An Octopus's Garden with me.

E C#m
I'd like to be under the sea
A B
In an Octopus's Garden in the shade.


E C#m
We would be warm below the storm
A B
In our little hideaway beneath the waves.
E C#m
Resting our head on the sea bed
A B
In an Octopus's Garden near a cave.
C#m
We would sing and dance around
A B
Because we know we can't be found.

E C#m
I'd like to be under the sea
A B
In an Octopus's Garden in the shade.


[Solo]
A F#m D E
A F#m D E A B


E C#m
We would shout and swim about
A B
The coral that lies beneath the waves.
E C#m
Oh, what joy for every girl and boy
A B
Knowing they're happy and they're safe.
C#m
We would be so happy, you and me.
A B
No one there to tell us what to do.

E C#m
I'd like to be under the sea
A B C#m
In an Octopus's Garden with you,
A B C#m
In an Octopus's Garden with you,
A B E B E
In an Octopus's Garden with you.

==============================================

I Want You (She's So Heavy)

|Dm |E7-9 Bb |

A+ F Am
I want you I want you so bad I want you
Am Dm7 F G G#+ Am Am7
I want you so bad it's driving me mad it's driving me mad
Dm Dm7 Dm
I want you You know I want you so bad babe. I want you
C Bb E7-9
You know I want you so bad it's driving me mad it's driving me mad

E7-9 = xx0101
A+ = xx3221
G#+ = xx2110

=======================================

Here Comes the Sun

INTRO:

4/4
(2nd guitar tacit)
|-----2---0-2-----|-----2-0---------|-------0---------|-----------0-----|
|-------3-------3-|-----------3---0-|-----3-----3---0-|-2-0-2-3---2-----|
|---2-------------|---2-------------|---0-------------|-0---2-4-------0-|
|-0---0---0---0---|-0---0---0---0---|-----------------|-----------------|
|-----------------|-----------------|-----------------|-0---0---0---0---|
|-----------------|-----------------|-3---3---3---3---|-----------------|


A(xx765x) A(xx765x) D(xx777x) E7(076xxx) slide down
|-----2---0-2-----|-----2-0---------|-----2-0---------|-----------------|
|-------3-------3-|-----------3---0-|-----------3---2-|-(2)-------------|
|---2-------------|---2-------------|---0-----------0-|-(0)-------------|
|-0---0---0---0---|-0---0---0---0---|-----------------|-----------------|
|-----------------|-----------------|---------------0-|-(0)-------------|
|-----------------|-----------------|-3---3---3---3---|-----------------|


A(577655) A Dmaj7(x57675) B7(x21202)
|-----2-0---2-----|-----2---0-2-----|-----2-0---2-----|-----------------|
|-----3-----3---3-|-----3-3-3-------|-----0-----0---3-|-------2---0-----|
|---2-------------|---2-----------2-|---0-----------1-|-------1---1-----|
|-0---0---0---0---|-0---0---0---0---|-----------------|-----------------|
|-----------------|-----------------|-----------------|-----------------|
|-----------------|-----------------|-3---3---3---3---|-0---0---0---0---|
Here comes the sun Here comes the sun and I say


A D(x5423x) A/C#(x4222x) Bm7(x2423x) A/C# E7(020100)
|---2---0---------|-------0-----------0----------|-0---------0----------|
|---3---3---3-----|----3----------3-----------3--|--------3-----3p2-----|
|---------------2-|-4---------2------------0-----|-----2------------4p2-|
|-0---0---0---0---|-0---------0------------0-----|-----0----------------|
|-----------------|------------------------------|--------------0---0---|
|-----------------|------------------------------|----------------------|
It's alright


VERSES 1 and 2:

A A D E7
||------2---0-2-----|-----2-0---------|-------0---------|-----------0-----|
||--------3-------3-|-----------3---0-|---3-------3---0-|-2-0-2-3---2-----|
||*---2-------------|---2-------------|-----------------|-0---2-4-------0-|
||*-0---0---0---0---|-0---0---0---0---|-----------------|-----------------|
||------------------|-----------------|-----------------|-0---0---0---0---|
||------------------|-----------------|-3---3---3---3---|-----------------|
1. Little darling, it's been a long cold lonely winter;
2. Little darling, the smiles returning to their faces;

A A D E7
|-----2---0-2-----|-----2-0---------|---2---0---------|-----------0-----|
|-------3-------3-|-----------3---0-|-----------3---2-|-----2-3---2-----|
|---2-------------|---2-------------|-----------------|---0-----------0-|
|-0---0---0---0---|-0---0---0---0---|-----------------|-----------------|
|-----------------|-----------------|-----------------|-0---0---0---0---|
|-----------------|-----------------|-3---3---3---3---|-----------------|
1,2. Little darling, it seems like years since it's been clear


A A Dmaj7 B7
|-----2-0---2-----|-----2---0-2-----|-----2-0---2-----|-----------------|
|-----3-----3---3-|-----3-3-3-------|-----0-----0---3-|-------2---0-----|
|---2-------------|---2-----------2-|---0-----------1-|-------1---1-----|
|-0---0---0---0---|-0---0---0---0---|-----------------|-----------------|
|-----------------|-----------------|-----------------|-----------------|
|-----------------|-----------------|-3---3---3---3---|-0---0---0---0---|
Here comes the sun (doot'n do do) Here comes the sun and I say


A D A/C# Bm7 A/C# E7
|---2---0---------|-----0------0-------|-0------0----------|
|---3---3---3-----|---3------3------3--|------3----3p2-----|
|---------------2-|-4------2------0----|----2----------4p2-|
|-0---0---0---0---|-0------0------0----|----0--------------|
|-----------------|--------------------|-----------0---0---|
|-----------------|--------------------|-------------------|
It's alright
.................... ......................
1. | 2. 2/4 3/8
A E7 | E7 (tacit)
|-----2---0-2-----|-----------0------|| |---------|-------|
|-------3-------0-|-2-0-2-3---2------|| |-2-------|-------|
|---2-------------|-0---2-4-------0-*|| |-0-------|-------|
|-0---0---0---0---|-----------------*|| |---------|-----2-|
|-----------------|-0---0---0---0----|| |-0-------|-0-4---|
|-----------------|------------------|| |---------|-------|


CHORUS: ....................
1,2,3,4,5. |
3/8 5/8 4/4 2/4 3/8 |
C G D A E7 (tacit) |
||---------|--------|------------|-----2---0-2-----|---------|--------||
||------1--|--------|------------|-----3-3-------2-|---0-2---|--------||
||*---2----|-----0--|-----0------|---------------0-|-----0---|-------*||
||*-3------|---2----|---0--------|-0---0---0---0---|---------|-----2-*||
||---------|-3------|-2-------2--|-----------------|-0---0---|-0-4----||
||---------|--------|-------3----|-----------------|---------|--------||
1,2. (no singing)
3,4,5,6. Sun, sun, sun, here it comes


.....................................
6.
4/4
E7 E7 E7 E7
|-----------------|---------------0-|-------------0-3-|---------5---5---|
|-----------0-2-3-|-----------2-3-2-|-----------3-2-2-|---------2---2---|
|-------------0-0-|-----------0-0---|-----------0-----|---------2---2---|
|-----------------|-----------------|-----------------|-----------------|
|-0---0---0---0---|-0---0---0---0---|-0---0---0---0---|-0---0---0---0---|
|-----------------|-----------------|-----------------|-----------------|

VERSE 3:

A A D E7
||------2---0-2-----|-----2-0---------|-------0---------|-----------0-----|
||--------3-------3-|-----------3---0-|---3-------3---0-|-2-0-2-3---2-----|
||*---2-------------|---2-------------|-----------------|-0---2-4-------0-|
||*-0---0---0---0---|-0---0---0---0---|-----------------|-----------------|
||------------------|-----------------|-----------------|-0---0---0---0---|
||------------------|-----------------|-3---3---3---3---|-----------------|
Little darling, I feel that ice is slowly melting;

A A D E7
|-----2---0-2-----|-----2-0---------|---2---0---------|-----------0-----|
|-------3-------3-|-----------3---0-|-----------3---2-|-----2-3---2-----|
|---2-------------|---2-------------|-----------------|---0-----------0-|
|-0---0---0---0---|-0---0---0---0---|-----------------|-----------------|
|-----------------|-----------------|-----------------|-0---0---0---0---|
|-----------------|-----------------|-3---3---3---3---|-----------------|
Little darling, it seems like years since it's been clear


A A Dmaj7 B7
||------2-0---2-----|-----2---0-2-----|-----2-0---2-----|-----------------|
||------3-----3---3-|-----3-3-3-------|-----0-----0---3-|-------2---0-----|
||*---2-------------|---2-----------2-|---0-----------1-|-------1---1-----|
||*-0---0---0---0---|-0---0---0---0---|-----------------|-----------------|
||------------------|-----------------|-----------------|-----------------|
||------------------|-----------------|-3---3---3---3---|-0---0---0---0---|
Here comes the sun (doot'n do do) Here comes the sun and I say


A D A/C# Bm7 A/C# E7
|---2---0---------|-----0------0-------|-0------0-----------||
|---3---3---3-----|---3------3------3--|------3----3p2------||
|---------------2-|-4------2------0----|----2----------4p2-*||
|-0---0---0---0---|-0------0------0----|----0--------------*||
|-----------------|--------------------|-----------0---0----||
|-----------------|--------------------|--------------------||
It's alright


A D A/C# Bm7 A/C# E7
|---2---0---------|-----0------0-------|-0------0----------|
|---3---3---3-----|---3------3------3--|------3----3p2-----|
|---------------2-|-4------2------0----|----2----------4p2-|
|-0---0---0---0---|-0------0------0----|----0--------------|
|-----------------|--------------------|-----------0---0---|
|-----------------|--------------------|-------------------|
It's alright


CODA:

3/8 5/8 4/4
C(note) B(note) D(note) A(x022xx)
|--------|--------|------------|-2---------||
|-----1--|--------|------------|-3---------||
|---2----|-----0--|-----0------|-2---------|| Fine.
|-3------|---2----|---0--------|-0---------||
|--------|-3------|-2-------2--|-----------||
|--------|--------|-------3----|-----------||


===================================================


Because

standard tuning
1
|------------------|-------------------|
|--------5---------|--------5----------|
|------6---6-------|------6---6--------|
|----6-------6---6-|----6-------6---6--|
|--4-----------7---|--4-----------7----|
|------------------|-------------------|
C#m

3
|------------------|-------------------|
|--------4---------|--------4----------|
|------6---6-------|------5---5--------|
|----7-------7---4-|----6-------6---6--|
|--6-----------7---|--6----------------|
|------------------|--------------4----|
D#m7-5 G#/D# G#

5
|------------------|-------------------|
|--------5---------|--------5----------|
|------6---6-------|------6---6--------|
|----7-------7---7-|----6-------6---6--|
|--------------7---|--4-----------4----|
|--5---------------|-------------------|
A C#m

7
|------------------|-------------------|
|--------8---------|-----------7-------|
|------6---6-------|------6------------|
|----5-------5---5-|----5--------------|
|--------------7---|-------------------|
|--5---------------|--5----------------|
A7 A13
9
|--------2---------|-------------------|
|------3---3-------|--------7-6--------|
|----2-------2---2-|----4/7------------|
|--------------4---|--0---------6------|
|--5---------------|-------------------|
|------------------|-------------------|
D D*7

11
|------4-----------|----4--------------|
|--5-----------5---|------5-------5----|
|--------6---------|----------6--------|
|----6-----6-----6-|--6-----6---6---6--|
|--4---------4-----|--4----------------|
|------------------|-------------------|
C#m

13
|--------2---------|-------------------|
|----2-----2-------|----------4--------|
|--2---2-----2-----|--------5---5------|
|--1---------------|------4-------6----|
|--------------0---|----6--------------|
|------------------|--4----------------|
D#m7-5 G#7

15
|--------5---------|--------4----------|
|--5-------5-------|--5-------5--------|
|------6-------6---|------6------------|
|----7-------7---7-|----6---------6----|
|------------------|--4---------6---6--|
|--5---------------|-------------------|
A C#m

17
|--------5---------|--------5----------|
|--8-------8-----8-|--7-------7--------|
|------6-------6---|------6------------|
|----7-------7-----|----5--------5-----|
|------------------|-------------------|
|--5---------------|--5----------------|
A7 A13

19
|--------0-2p0-----|--1----------------|
|------3---3---3---|--0----------------|
|----2-----2-----2-|--1---1-2-4---1-2--|
|--0-------0-------|--0----------------|
|------------------|-------------------|
|------------------|-------------------|
D D*7

21
|-------------2----|-------------------|
|---------2-----2--|----------2--------|
|-----3-----3------|------3-4-3----3-4-|
|--4----4----------|----4-----4--4-----|
|------------------|-------------------|
|--2---------------|--2-------2--------|
F#m

23
|-------------4----|-----------4--4----|
|---------4-----4--|--------5----------|
|-----5-----5------|------5------------|
|--6----6----------|----4--------------|
|------------------|-------------------|
|--4---------------|--4----------------|
G# G#7-5

25
|-12-----9------12----|----------9----12----|
|----9------9---------|-9------9-9----------|
|------9------9-------|------9---9----------|
|---------11-------11-|---11-------11----11-|
|---------------------|---------------------|
|-9-------------------|-9--------9----------|
C#m

27
|--5-------5--------|--------------4-----|
|--7-----7---7------|----------4---------|
|--6---6-------6----|--------5---5-------|
|----7--------------|------6----------6--|
|--6-------------0--|----6---------------|
|-------------------|--4-----------------|
D#m7-5 G#

29
|-12--------------9----|-12------------9----|
|----10------10--------|----9------9--------|
|-------9-------9------|------9------9------|
|---------11--------11-|--------11-------11-|
|-0--------------------|--------------------|
|----------------------|-9------------------|
A C#m
31
|-15----------------15----|-14----------14----|
|----14-------14-------14-|-14-------14----14-|
|-------12-------12-------|-12----12----------|
|----------14-------------|----14-------------|
|-0-----------------------|-0-----------------|
|-------------------------|-------------------|
A7 A13

33
|-14--------12-10-----------|-16--14--13----14--16-|
|-10--10-------10--14-12-10-|-15------15-----------|
|-11-----11----11-----------|-16------16-16--------|
|-0------------0------------|-0-------0------------|
|---------------------------|----------------------|
|---------------------------|----------------------|
D D*7

35
|-12-----9-------12---|----------9----12-|
|----9-------9--------|-9------9-9-------|
|------9-------9----9-|------9---9--9----|
|---------11----------|---11-------------|
|---------------------|------------------|
|-9-------------------|-9--------9-------|
C#m

37
|-14-------12-11----------|-------------11-12-|
|-14-14----------14-13-14-|-13-------13-------|
|-14----14----------------|-------11----------|
|-------------------------|----13-------------|
|-------------------------|-11----------------|
|-11----------11----------|-------------------|
D#m7-5 G#7

39
|-9--------------9----|-12------------9----|
|---10------10--------|----9------9--------|
|------9-------9------|------9------9------|
|--------11--------11-|--------11-------11-|
|-0-------------------|--------------------|
|---------------------|-9------------------|
A C#m

41
|-9----------------9----|--------------9-|
|---12----------12---12-|-------12-------|
|------12----12---------|-11-------11----|
|---------11------------|----11----------|
|-0---------------------|-0--------------|
|-----------------------|----------------|
A9 A13

43
|--5---3---2----------|--7-------------|
|--7---5---3--5--3----|--9-------7--6--|
|-------------6--4----|-----4h7--------|
|--0----------------0-|--0-------------|
|---------------------|----------------|
|---------------------|----------------|
D D*7


=========================================

You Never Give Me Your Money


Am7 Dm7(add9) Dm G7 Csus4 C

Fmaj7 Dm E Am

Am7 Dm7(add9) Dm
You never give me your mo ney
G C
You only give me your funny paper
Fmaj7 Dm E
And in the middle of negotiations
Am
You break down


Am7 Dm7(add9) Dm
I never give you my num ber
G C
I only give you my situation
Fmaj7 Dm E
And in the middle of investigation
Am C G7
I break down


C E7
Out of college, money spent
Am C7
See no future, pay no rent
F G7
All the money's gone
C C7
Nowhere to go


C E7
Any jobber, got the sack
Am C7
Monday morning, turning back
F G7
Yellow lorry slow
C C7
Nowhere to go


Bb F
But oh, that magic feeling
C
Nowhere to go
Bb F
Oh, that magic feeling
C
Nowhere to go, nowhere to go


Bb F C
Ah---------

Bb F C
Ah---------

Bb F C
Ah---------

D Eb G C A Eb C F# Eb A F# G G# A


B
One sweet dream
C D E7 A
Pick up the bags and get in the limousine
D7 G
Soon we'll be away from here
D7 G A
step on the gas and wipe that tear away

here's the little riff:
B7 C G/B A
One sweet dream came true today -----------------------5--|
C G/B A -------------0------------|
came true today -----0-----0---0-----2----|
C G/B A ---2-----0---------2------|
came true today yes it did! -3-----2---------0--------|
--------------------------|
C G/B A


C G/B
One two three four five six seven
A
All good children go to heaven
C G/B
One two three four five six seven
A
All good children go to heaven...


============================================

Sun King

(each line represents 4 bars)
E
A E
A E
A6 A6 A6 A6 A6 A7 Amaj7 E

Dm ahhh (2 bars)

C Em Gm7 A
Here come the sun king

C Em Gm7 A
Here come the sun king

F D F D
Everybody's laughing Everybody's happy

C Em Gm7 F (notice the change)
Here come the sun king


A E here they sing in Italian.
A E understand me for not writing the words.
A E


This song turns immediatly to MEAN MR. MUSTARD with no break
in between.

==========================================

Mean Mr Mustard

E E7
Mean Mr Mustard sleeps in the park

E
Shaves in the dark, trying to save paper
B B7 C7 Db7 D7
Sleeps in a hole in the road
D D7 Db7 C7 B7
Saving up to buy his new clothes
B
Keeps a ten bob note up his nose
E C7 B7 E C7 B7
Such a mean old man, mean old man


E E7
His sister Pam works in a shop
E
She never stops she's a go-getter
B B7 C7 Db7 D7
Takes him out to look at the Queen
D7 Db7 C7 B7
Only place that he's ever been

Always shouts out something obscene
E C7 B7 E C7 B7
Such a dirty old man, dirty old man

B7 C7 Db7 D A E, D A E

[E] Mean Mr Mustard sleeps [E7] in the park

Shaves in the [E] dark, trying to save paper
Sleeps in a hole in the road B7 C7 Db7 D7
Saving up to buy his new clothes D7 Db7 C7 B7
Keeps a ten bob note up his nose
Such a [E] mean old [C7 B7] man, [E] mean old [C7 B7] man

[E] His sister Pam works [E7] in a shop
She never [E] stops she's a go-getter
[B] Takes him out to look at the Queen B7 C7 Db7 D7
Only place that he's ever been D7 Db7 C7 B7
Always shouts out something obscene
Such a [E] dirty old [C7 B7] man, [E] dirty old [C7 B7]man

B7 C7 Db7 D A E, D A E

=============================================

POLYTHENE PAM


D/E A E (x 2)
E D A E
Well, you should see Polythene Pam
D A E
She's so good looking but she looks like a man
G B
Well, you should see her in drag, dressed in her polythene bag
C D E
Yes, you should see Polythene Pam.
C D E
Yeah, yeah, yeah

D/E A E (x 2)

Get a dose of her in jackboots and kilt
She's killer diller when she's dressed to the hilt
She's the kind of a girl that makes the _News of the World_
Yes, you could say she was attractively built.
Yeah, yeah, yeah

D/E A E (x2)
D A E (x 9?)

[Geez, while I'm at it, here's She Came in through the Bathroom Window.
Same source ltrics corrected by Charlie_Gibbs@mindlink.bc.ca

A D
She came in through the bathroom window
A F#m D
protected by a silver spoon
A F#m D
But now she sucks her thumb and wonders
D7 A
by the banks of her own lagoon

(A) Dm
Didn't anybody tell her?
A Dm
Didn't anybody see?
G7 C
Sunday's on the phone to Monday
G7 C (go to 2/4 for the C)
Tuesday's on the phone to me

She said she'd always been a dancer
Worked in fifteen clubs a day
And though I thought I knew the answer
Well, I knew but I could not say

So I quit the police department
and got myself a steady job
And though she tried her best to help me
she could steal but she could not rob

Chorus

====================================================


She Came in Through the Bathroom Window

A D
She came in through the bathroom window
A D
Protected by a silver spoon
A D
But now she sucks her thumb and wonders
A
By the banks of her own lagoon

Dm A
Didn't anybody tell her?
Dm
Didn't anybody see?
G7 C C/B
Sunday's on the phone to Monday
G7 C A
Tuesday's on the phone to me

D A
She said she'd always been a dancer
D A
She worked in fifteen clubs a day
D
And though she thought I knew the answer
A
Well, I knew but I could not say


D A
And so I quit the police department
D A
And got myself a steady job
D
And though she tried her best to help me
A
She could steal but she could not rob


Dm A
Didn't anybody tell her?
Dm
Didn't anybody see?
G7 C C/B
Sunday's on the phone to Monday
G7 C A
Tuesday's on the phone to me oh yea

========================================================

Golden Slumbers

INTRO (one measure)
(quietly)
------------------------|
------------------------|
0-----0-----0-----0-----|
------------------------|
3--0--3--0--3--0--3--0--|
------------------------|
1 & 2 & 3 & 4 &

-VERSE-
(quietly the 1st time, louder the 2nd time)
Am7 Dm7
Once, there was a way_________ to get back homeward
G7 C
Once, there was a way_________ to get back home
Em Am Dm9
Sleep pretty darling, do not cry,
G7 C
And I will sing a lullaby
-CHORUS-
(loudly)
C F C
Gold - en slumbers fill your eyes
C F C
Smiles awake you when you rise
Em Am Dm9
Sleep pretty darling, do not cry,
G7 C
And I will sing a lullaby

(Repeat VERSE)

======================================================

CARRY THAT WEIGHT

C G
Boy, you're gonna to carry that weight
C
carry that weight a long time.
G
Boy, you're gonna to carry that weight
C C/B
carry that weight a long time.


Am7 Dm7(add9) Dm G Csus4 C Fmaj7 Dm E7 Am


Dm7(add9) Dm G
I never give you my pil low
Csus4 C Fmaj7
I only send you my invitations
Dm E7
And in the middle of the celebrations
Am G C G
I break down


C G
Boy, you're gonna to carry that weight
C
carry that weight a long time.
G
Boy, you're gonna to carry that weight
C G/B A
carry that weight a long time.

C G/B A

Dm(add9)

=======================================

The End

A D B E
-|--5---10----7----12----|
-|--5---10----7----12----|
-|--2---7-----4----9-----|
-|--2---7-----4----9-----|
-|-----------------------|
-|-----------------------|
Oh Yeah All Right

A Eb dim A
-|-----------------------------------------------|
-|-----------------------------------------------|
-|-----------------------------------------------|
-|-----------------------------------------------|
-|-----------4--5--6--7---8---9----9--7--4-------|
-|---5-------5--7--8--9--10--11---10--8--5-------|
Are you gon na be in my dreams to night


A7 A D7 D7
-|--0----0------2----2---------|
-|--2----2------1----1---------|
-|--0----2------2----2---------|
-|--2----2------0----0---------| (repeat six times)
-|--0----0---------------------|
-|-----------------------------|
Love You Love You


The leads: Make sure to change your tone completely from
line to line so you sound like three different guys ;^)


A7 A D7
-|--------------5-----5--3------------------------------------|
-|--5--5--5--5-----5--------3/1-----3--1----------------------|
-|-------------------------------2--------2--0----------------|
-|------------------------------------------------------------|
-|------------------------------------------------------------|
-|------------------------------------------------------------|


A7 A D7
-|-----------------------------------------------------------------------|
-|----------------b(13)11--11h13p11--------------------------------------|
-|--12h14--12h14---------------------12--12--12--------------------------|
-|-----------------------------------------------14--14--12--12----------|
-|---------------------------------------------------------------15--12--|
-|-----------------------------------------------------------------------|


A7 A D7
-|-----------------------------------------------------------------------!) (this is
-|--12--14--14--14--12--14--14--14--12--14--14--14--12-------------------!) the best
-|--12--14--14--14--12--14--14--14--12--14--14--14--12-------------------!) I got for
-|--12--14--14--14--12--14--14--14--12--14--14--14--12-------------------!) this part!
-|--------------------------------------------------------- So sue me--!)
-|-----------------------------------------------------------------------!)


A7 A D7
-|--8--8--8--8---------------------------------------------|
-|--------------5-----------5--4--5--------------11b(13)---|
-|-----------------5-----5-----------14--12--14------------|
-|--------------------7------------------------------------|
-|---------------------------------------------------------|
-|---------------------------------------------------------|


A A7 D7
-|------------------------------------------------------------5--|
-|--------5--5--------5--5-----5--5-----5--7b(9)r7--5h7p5--------|
-|--------5--5--------5--5-----5--5-----5--7b(9)r7--5h7p5--------|
-|--7--7--------7--7--------7--------7---------------------7-----|
-|---------------------------------------------------------------|
-|---------------------------------------------------------------|
-|---------------------------------------------------------------|
-|---------------------------------------------------------------|


A A7 D7
-|---------------------------------------------------------------|
-|---------------------------------------------------------------|
-|---------------------------------------------------------------|
-|---------------------------------------------------------------|
-|-----------3--5--3--5--3--5--3--b(7)5--5--3--5-----------------|
-|--0--3--5------------------------------------------------------|


A A7 D7
-|-------------------------------------------------------------------|
-|-------------------------------------------------------------------|
-|--------------5--5--5--5--------------5--5--5--5-------------------|
-|--5--5--5--5--------------5--5--5--5--------------7\5--------------|
-|-------------------------------------------------------7\5--3--0---|
-|-------------------------------------------------------------------|


A A7 D7
-|-----------------15b(17)--15-----------------------------------|
-|--5/8--8/10--13---------------13--15--13-----------------------|
-|---------------------------------------------------------------|
-|---------------------------------------------------------------|
-|---------------------------------------------------------------|
-|---------------------------------------------------------------|


A A7 D7 A
-|---------------------------------------------------------------|
-|-----------7--7--7--7--7--7--7--7--7--7--7--7--5---------------|
-|-----------7--7--7--7--7--7--7--7--7--7--7--7--6---------------| (sue me
-|-----5--7--7--7--7--7--7--7--7--7--7--7--7--7--7---------------| again!)
-|--7------------------------------------------------------------|
-|---------------------------------------------------------------|

================================================

Her Majesty


Her Majesty's a pretty nice girl but she hasn't got a lot to say
D D/C# D/B D E7 A7 D
E -2----2-2----2--2---2--------2-2--------2---2--------------------------------|
B -3----3-2----3--3---3--------3-3--------3---3----------3--3-----2---3--------|
G -2----2-2----2--2---2--------2-3--------2---2----------1--1-----0---2--------|
D -0--0--------------------------------------------------2--2-----2---0--------|
A -0---------4----------2-----------0--------------------------0--------0-2-4--|
E -2-----------------------------------------------0---------------------------|

Her Majesty's a pretty nice girl but she changes from day to day
D/C# D/B D E7 A

I wanna tell her I love her alot but I gotta get a belly fulla wine
Bm Bm9 D7 G

Her Majesty's a pretty nice girl some day I'm gonna make her
(S) Ddim D B7 E7 A

Mine oh yeah some day I'm gonna make her mine.
D B7 E7 A7 D

(S) = Slide up to this note

No hay comentarios:

Publicar un comentario en la entrada

Transmisiones en vivo via teléfono celular

Picasa. Fotos que hice en Argentina,España,Italia:

Mi Demo Reel Archivo de Trabajo en Youtube:

Flickr. Mis Fotos en otra presentación:


Mis Covers en video:


Playlist de mis covers en audio tocados mezclados y masterizados por mi y remixes de canciones conocidas

Otro Playlist SoundCloud de Mis Covers y Composiciones:

El Desempleo es para mi un tema